ISO-10303-21;
HEADER;
FILE_DESCRIPTION (( 'STEP AP203' ),
    '1' );
FILE_NAME ('Q-DWWP-R41-25.4-1064-SH-M.STEP',
    '2020-12-22T08:54:18',
    ( '' ),
    ( '' ),
    'SwSTEP 2.0',
    'SolidWorks 2020',
    '' );
FILE_SCHEMA (( 'CONFIG_CONTROL_DESIGN' ));
ENDSEC;

DATA;
#1 = CYLINDRICAL_SURFACE ( 'NONE', #31, 5.000000000000000000 ) ;
#2 = ORIENTED_EDGE ( 'NONE', *, *, #47, .T. ) ;
#3 = VECTOR ( 'NONE', #131, 1000.000000000000000 ) ;
#4 = CARTESIAN_POINT ( 'NONE',  ( -1.614212418857619014, 3.673940397442059868E-16, -3.000000000000000000 ) ) ;
#5 = CARTESIAN_POINT ( 'NONE',  ( -0.5000000000000002220, 3.000000000000000000, 0.000000000000000000 ) ) ;
#6 = ADVANCED_FACE ( 'NONE', ( #298, #147 ), #269, .F. ) ;
#7 = DIRECTION ( 'NONE',  ( 0.000000000000000000, 0.000000000000000000, 1.000000000000000000 ) ) ;
#8 = APPLICATION_PROTOCOL_DEFINITION ( 'international standard', 'config_control_design', 1994, #58 ) ;
#9 = AXIS2_PLACEMENT_3D ( 'NONE', #243, #217, #166 ) ;
#10 = LINE ( 'NONE', #134, #118 ) ;
#11 = APPROVAL_PERSON_ORGANIZATION ( #184, #228, #288 ) ;
#12 = CARTESIAN_POINT ( 'NONE',  ( -1.614212418857619014, 0.000000000000000000, 0.000000000000000000 ) ) ;
#13 = PERSON_AND_ORGANIZATION ( #185, #334 ) ;
#14 = ORIENTED_EDGE ( 'NONE', *, *, #124, .F. ) ;
#15 = SECURITY_CLASSIFICATION_LEVEL ( 'unclassified' ) ;
#16 = ORIENTED_EDGE ( 'NONE', *, *, #261, .F. ) ;
#17 = ORIENTED_EDGE ( 'NONE', *, *, #310, .T. ) ;
#18 = CARTESIAN_POINT ( 'NONE',  ( -1.614212418857619014, 0.000000000000000000, 0.000000000000000000 ) ) ;
#19 = ORIENTED_EDGE ( 'NONE', *, *, #54, .F. ) ;
#20 = VECTOR ( 'NONE', #317, 1000.000000000000000 ) ;
#21 = VECTOR ( 'NONE', #105, 1000.000000000000000 ) ;
#22 = CYLINDRICAL_SURFACE ( 'NONE', #169, 5.000000000000000000 ) ;
#23 = PLANE ( 'NONE',  #209 ) ;
#24 = ORIENTED_EDGE ( 'NONE', *, *, #82, .F. ) ;
#25 = DIRECTION ( 'NONE',  ( -0.000000000000000000, 0.000000000000000000, 1.000000000000000000 ) ) ;
#26 = AXIS2_PLACEMENT_3D ( 'NONE', #133, #100, #76 ) ;
#27 = EDGE_LOOP ( 'NONE', ( #189, #98, #74, #19 ) ) ;
#28 = ADVANCED_FACE ( 'NONE', ( #248 ), #195, .F. ) ;
#29 = EDGE_LOOP ( 'NONE', ( #281, #2 ) ) ;
#30 = CARTESIAN_POINT ( 'NONE',  ( -1.614212418857619014, 0.000000000000000000, 5.000000000000000000 ) ) ;
#31 = AXIS2_PLACEMENT_3D ( 'NONE', #50, #55, #53 ) ;
#32 = EDGE_CURVE ( 'NONE', #46, #42, #149, .T. ) ;
#33 = AXIS2_PLACEMENT_3D ( 'NONE', #182, #85, #186 ) ;
#34 = PERSON_AND_ORGANIZATION_ROLE ( 'classification_officer' ) ;
#35 = CARTESIAN_POINT ( 'NONE',  ( -0.5000000000000002220, 3.673940397442059868E-16, -3.000000000000000000 ) ) ;
#36 = COORDINATED_UNIVERSAL_TIME_OFFSET ( 8, 0, .AHEAD. ) ;
#37 = AXIS2_PLACEMENT_3D ( 'NONE', #327, #95, #330 ) ;
#38 = CC_DESIGN_PERSON_AND_ORGANIZATION_ASSIGNMENT ( #116, #34, ( #233 ) ) ;
#39 = PERSON_AND_ORGANIZATION_ROLE ( 'creator' ) ;
#40 = ORIENTED_EDGE ( 'NONE', *, *, #124, .T. ) ;
#41 = DATE_TIME_ROLE ( 'creation_date' ) ;
#42 = VERTEX_POINT ( 'NONE', #193 ) ;
#43 = CYLINDRICAL_SURFACE ( 'NONE', #252, 3.000000000000000000 ) ;
#44 = LOCAL_TIME ( 16, 54, 18.00000000000000000, #143 ) ;
#45 = VERTEX_POINT ( 'NONE', #249 ) ;
#46 = VERTEX_POINT ( 'NONE', #68 ) ;
#47 = EDGE_CURVE ( 'NONE', #132, #140, #80, .T. ) ;
#48 = FACE_OUTER_BOUND ( 'NONE', #176, .T. ) ;
#49 = DIRECTION ( 'NONE',  ( -1.000000000000000000, -0.000000000000000000, -0.000000000000000000 ) ) ;
#50 = CARTESIAN_POINT ( 'NONE',  ( -1.614212418857619014, 0.000000000000000000, 0.000000000000000000 ) ) ;
#51 = EDGE_LOOP ( 'NONE', ( #104, #71 ) ) ;
#52 = PRODUCT_DEFINITION ( 'UNKNOWN', '', #222, #258 ) ;
#53 = DIRECTION ( 'NONE',  ( 0.000000000000000000, 0.000000000000000000, 1.000000000000000000 ) ) ;
#54 = EDGE_CURVE ( 'NONE', #220, #306, #242, .T. ) ;
#55 = DIRECTION ( 'NONE',  ( -1.000000000000000000, -0.000000000000000000, -0.000000000000000000 ) ) ;
#56 = FACE_OUTER_BOUND ( 'NONE', #304, .T. ) ;
#57 = DIRECTION ( 'NONE',  ( 1.000000000000000000, 0.000000000000000000, 0.000000000000000000 ) ) ;
#58 = APPLICATION_CONTEXT ( 'configuration controlled 3d designs of mechanical parts and assemblies' ) ;
#59 = APPROVAL ( #61, 'UNSPECIFIED' ) ;
#60 = AXIS2_PLACEMENT_3D ( 'NONE', #121, #84, #283 ) ;
#61 = APPROVAL_STATUS ( 'not_yet_approved' ) ;
#62 = CALENDAR_DATE ( 2020, 22, 12 ) ;
#63 = DIRECTION ( 'NONE',  ( -1.000000000000000000, -0.000000000000000000, -0.000000000000000000 ) ) ;
#64 = AXIS2_PLACEMENT_3D ( 'NONE', #122, #148, #294 ) ;
#65 = CIRCLE ( 'NONE', #60, 3.000000000000000000 ) ;
#66 = CC_DESIGN_SECURITY_CLASSIFICATION ( #233, ( #222 ) ) ;
#67 = EDGE_CURVE ( 'NONE', #42, #46, #204, .T. ) ;
#68 = CARTESIAN_POINT ( 'NONE',  ( 0.5000000000000004441, 0.000000000000000000, 3.000000000000000000 ) ) ;
#69 = EDGE_CURVE ( 'NONE', #255, #324, #203, .T. ) ;
#70 = LINE ( 'NONE', #110, #218 ) ;
#71 = ORIENTED_EDGE ( 'NONE', *, *, #54, .T. ) ;
#72 = AXIS2_PLACEMENT_3D ( 'NONE', #5, #87, #260 ) ;
#73 = DIRECTION ( 'NONE',  ( -1.000000000000000000, -0.000000000000000000, -0.000000000000000000 ) ) ;
#74 = ORIENTED_EDGE ( 'NONE', *, *, #82, .T. ) ;
#75 = EDGE_CURVE ( 'NONE', #129, #220, #335, .T. ) ;
#76 = DIRECTION ( 'NONE',  ( 0.000000000000000000, 0.000000000000000000, 1.000000000000000000 ) ) ;
#77 = DIRECTION ( 'NONE',  ( 0.000000000000000000, 0.000000000000000000, 1.000000000000000000 ) ) ;
#78 = APPLICATION_CONTEXT ( 'configuration controlled 3d designs of mechanical parts and assemblies' ) ;
#79 = CARTESIAN_POINT ( 'NONE',  ( -1.500000000000000000, 3.000000000000000000, 0.000000000000000000 ) ) ;
#80 = CIRCLE ( 'NONE', #9, 3.000000000000000000 ) ;
#81 = ORIENTED_EDGE ( 'NONE', *, *, #32, .T. ) ;
#82 = EDGE_CURVE ( 'NONE', #154, #306, #99, .T. ) ;
#83 = ORIENTED_EDGE ( 'NONE', *, *, #196, .T. ) ;
#84 = DIRECTION ( 'NONE',  ( -1.000000000000000000, -0.000000000000000000, -0.000000000000000000 ) ) ;
#85 = DIRECTION ( 'NONE',  ( -1.000000000000000000, -0.000000000000000000, -0.000000000000000000 ) ) ;
#86 = DIRECTION ( 'NONE',  ( 1.000000000000000000, 0.000000000000000000, 0.000000000000000000 ) ) ;
#87 = DIRECTION ( 'NONE',  ( 1.000000000000000000, 0.000000000000000000, 0.000000000000000000 ) ) ;
#88 = APPROVAL_DATE_TIME ( #212, #119 ) ;
#89 = MANIFOLD_SOLID_BREP ( 'Ðý×', #280 ) ;
#90 = DIRECTION ( 'NONE',  ( -1.000000000000000000, -0.000000000000000000, -0.000000000000000000 ) ) ;
#91 = CARTESIAN_POINT ( 'NONE',  ( 0.000000000000000000, 0.000000000000000000, 0.000000000000000000 ) ) ;
#92 = ADVANCED_FACE ( 'NONE', ( #48 ), #1, .T. ) ;
#93 = COORDINATED_UNIVERSAL_TIME_OFFSET ( 8, 0, .AHEAD. ) ;
#94 = EDGE_LOOP ( 'NONE', ( #190, #221, #17, #172 ) ) ;
#95 = DIRECTION ( 'NONE',  ( -1.000000000000000000, 0.000000000000000000, -0.000000000000000000 ) ) ;
#96 = LOCAL_TIME ( 16, 54, 18.00000000000000000, #36 ) ;
#97 = ORIENTED_EDGE ( 'NONE', *, *, #276, .F. ) ;
#98 = ORIENTED_EDGE ( 'NONE', *, *, #179, .T. ) ;
#99 = LINE ( 'NONE', #30, #231 ) ;
#100 = DIRECTION ( 'NONE',  ( -1.000000000000000000, -0.000000000000000000, -0.000000000000000000 ) ) ;
#101 = ORIENTED_EDGE ( 'NONE', *, *, #179, .F. ) ;
#102 = CARTESIAN_POINT ( 'NONE',  ( 1.500000000000000444, 3.673940397442059868E-16, -3.000000000000000000 ) ) ;
#103 = CARTESIAN_POINT ( 'NONE',  ( 1.500000000000000000, 6.123233995736766282E-16, -5.000000000000000000 ) ) ;
#104 = ORIENTED_EDGE ( 'NONE', *, *, #276, .T. ) ;
#105 = DIRECTION ( 'NONE',  ( -1.000000000000000000, -0.000000000000000000, -0.000000000000000000 ) ) ;
#106 = AXIS2_PLACEMENT_3D ( 'NONE', #18, #289, #207 ) ;
#107 = ADVANCED_FACE ( 'NONE', ( #157 ), #22, .T. ) ;
#108 = DIRECTION ( 'NONE',  ( 0.000000000000000000, 0.000000000000000000, 1.000000000000000000 ) ) ;
#109 = COORDINATED_UNIVERSAL_TIME_OFFSET ( 8, 0, .AHEAD. ) ;
#110 = CARTESIAN_POINT ( 'NONE',  ( -1.614212418857619014, 0.000000000000000000, 3.000000000000000000 ) ) ;
#111 = AXIS2_PLACEMENT_3D ( 'NONE', #158, #284, #236 ) ;
#112 = PERSON_AND_ORGANIZATION ( #185, #334 ) ;
#113 = DIRECTION ( 'NONE',  ( -1.000000000000000000, -0.000000000000000000, -0.000000000000000000 ) ) ;
#114 = DATE_AND_TIME ( #316, #96 ) ;
#115 = SHAPE_DEFINITION_REPRESENTATION ( #271, #325 ) ;
#116 = PERSON_AND_ORGANIZATION ( #185, #334 ) ;
#117 = EDGE_LOOP ( 'NONE', ( #144, #101 ) ) ;
#118 = VECTOR ( 'NONE', #113, 1000.000000000000000 ) ;
#119 = APPROVAL ( #237, 'UNSPECIFIED' ) ;
#120 = DIRECTION ( 'NONE',  ( -1.000000000000000000, -0.000000000000000000, -0.000000000000000000 ) ) ;
#121 = CARTESIAN_POINT ( 'NONE',  ( -1.500000000000000000, 0.000000000000000000, 0.000000000000000000 ) ) ;
#122 = CARTESIAN_POINT ( 'NONE',  ( 0.5000000000000004441, 0.000000000000000000, 0.000000000000000000 ) ) ;
#123 = ORIENTED_EDGE ( 'NONE', *, *, #75, .T. ) ;
#124 = EDGE_CURVE ( 'NONE', #324, #255, #167, .T. ) ;
#125 = AXIS2_PLACEMENT_3D ( 'NONE', #79, #57, #287 ) ;
#126 = EDGE_LOOP ( 'NONE', ( #279, #16, #168, #81 ) ) ;
#127 = CARTESIAN_POINT ( 'NONE',  ( 1.500000000000000444, 0.000000000000000000, 3.000000000000000000 ) ) ;
#128 = EDGE_CURVE ( 'NONE', #45, #223, #299, .T. ) ;
#129 = VERTEX_POINT ( 'NONE', #103 ) ;
#130 = FACE_BOUND ( 'NONE', #194, .T. ) ;
#131 = DIRECTION ( 'NONE',  ( -1.000000000000000000, -0.000000000000000000, -0.000000000000000000 ) ) ;
#132 = VERTEX_POINT ( 'NONE', #102 ) ;
#133 = CARTESIAN_POINT ( 'NONE',  ( -1.500000000000000000, 0.000000000000000000, 0.000000000000000000 ) ) ;
#134 = CARTESIAN_POINT ( 'NONE',  ( -1.614212418857619014, 0.000000000000000000, 3.000000000000000000 ) ) ;
#135 = DIRECTION ( 'NONE',  ( -1.000000000000000000, -0.000000000000000000, -0.000000000000000000 ) ) ;
#136 = EDGE_LOOP ( 'NONE', ( #198, #200 ) ) ;
#137 = DATE_AND_TIME ( #208, #290 ) ;
#138 = CARTESIAN_POINT ( 'NONE',  ( -1.500000000000000000, 6.123233995736766282E-16, -5.000000000000000000 ) ) ;
#139 = APPROVAL_ROLE ( '' ) ;
#140 = VERTEX_POINT ( 'NONE', #127 ) ;
#141 = PERSON_AND_ORGANIZATION_ROLE ( 'design_supplier' ) ;
#142 = CC_DESIGN_DATE_AND_TIME_ASSIGNMENT ( #114, #41, ( #52 ) ) ;
#143 = COORDINATED_UNIVERSAL_TIME_OFFSET ( 8, 0, .AHEAD. ) ;
#144 = ORIENTED_EDGE ( 'NONE', *, *, #196, .F. ) ;
#145 = AXIS2_PLACEMENT_3D ( 'NONE', #91, #162, #86 ) ;
#146 = CARTESIAN_POINT ( 'NONE',  ( -0.5000000000000002220, 0.000000000000000000, 3.000000000000000000 ) ) ;
#147 = FACE_BOUND ( 'NONE', #29, .T. ) ;
#148 = DIRECTION ( 'NONE',  ( -1.000000000000000000, -0.000000000000000000, -0.000000000000000000 ) ) ;
#149 = CIRCLE ( 'NONE', #64, 3.000000000000000000 ) ;
#150 = ORIENTED_EDGE ( 'NONE', *, *, #328, .F. ) ;
#151 = EDGE_CURVE ( 'NONE', #132, #42, #232, .T. ) ;
#152 = DIRECTION ( 'NONE',  ( 0.000000000000000000, 0.000000000000000000, 1.000000000000000000 ) ) ;
#153 = DIRECTION ( 'NONE',  ( -1.000000000000000000, -0.000000000000000000, -0.000000000000000000 ) ) ;
#154 = VERTEX_POINT ( 'NONE', #174 ) ;
#155 = DIRECTION ( 'NONE',  ( 0.000000000000000000, 0.000000000000000000, -1.000000000000000000 ) ) ;
#156 = CC_DESIGN_PERSON_AND_ORGANIZATION_ASSIGNMENT ( #240, #188, ( #52 ) ) ;
#157 = FACE_OUTER_BOUND ( 'NONE', #27, .T. ) ;
#158 = CARTESIAN_POINT ( 'NONE',  ( 1.500000000000000444, 0.000000000000000000, 0.000000000000000000 ) ) ;
#159 = CIRCLE ( 'NONE', #262, 5.000000000000000000 ) ;
#160 = APPROVAL_DATE_TIME ( #165, #59 ) ;
#161 = DATE_AND_TIME ( #62, #282 ) ;
#162 = DIRECTION ( 'NONE',  ( 0.000000000000000000, 0.000000000000000000, 1.000000000000000000 ) ) ;
#163 = CIRCLE ( 'NONE', #111, 3.000000000000000000 ) ;
#164 = CARTESIAN_POINT ( 'NONE',  ( -1.614212418857619014, 0.000000000000000000, 0.000000000000000000 ) ) ;
#165 = DATE_AND_TIME ( #187, #210 ) ;
#166 = DIRECTION ( 'NONE',  ( 0.000000000000000000, 0.000000000000000000, 1.000000000000000000 ) ) ;
#167 = CIRCLE ( 'NONE', #274, 3.000000000000000000 ) ;
#168 = ORIENTED_EDGE ( 'NONE', *, *, #214, .T. ) ;
#169 = AXIS2_PLACEMENT_3D ( 'NONE', #206, #153, #230 ) ;
#170 = CC_DESIGN_APPROVAL ( #228, ( #233 ) ) ;
#171 = ORIENTED_EDGE ( 'NONE', *, *, #67, .T. ) ;
#172 = ORIENTED_EDGE ( 'NONE', *, *, #328, .T. ) ;
#173 = ADVANCED_FACE ( 'NONE', ( #256 ), #199, .F. ) ;
#174 = CARTESIAN_POINT ( 'NONE',  ( 1.500000000000000000, 0.000000000000000000, 5.000000000000000000 ) ) ;
#175 = CARTESIAN_POINT ( 'NONE',  ( 1.500000000000000000, 0.000000000000000000, 0.000000000000000000 ) ) ;
#176 = EDGE_LOOP ( 'NONE', ( #83, #123, #97, #24 ) ) ;
#177 = DIRECTION ( 'NONE',  ( -1.000000000000000000, -0.000000000000000000, -0.000000000000000000 ) ) ;
#178 = ORIENTED_EDGE ( 'NONE', *, *, #214, .F. ) ;
#179 = EDGE_CURVE ( 'NONE', #129, #154, #159, .T. ) ;
#180 = ADVANCED_FACE ( 'NONE', ( #254 ), #23, .F. ) ;
#181 = APPLICATION_PROTOCOL_DEFINITION ( 'international standard', 'config_control_design', 1994, #78 ) ;
#182 = CARTESIAN_POINT ( 'NONE',  ( 1.500000000000000000, 0.000000000000000000, 0.000000000000000000 ) ) ;
#183 = APPROVAL_PERSON_ORGANIZATION ( #285, #119, #139 ) ;
#184 = PERSON_AND_ORGANIZATION ( #185, #334 ) ;
#185 = PERSON ( 'UNSPECIFIED', 'UNSPECIFIED', 'UNSPECIFIED', ('UNSPECIFIED'), ('UNSPECIFIED'), ('UNSPECIFIED') ) ;
#186 = DIRECTION ( 'NONE',  ( 0.000000000000000000, 0.000000000000000000, 1.000000000000000000 ) ) ;
#187 = CALENDAR_DATE ( 2020, 22, 12 ) ;
#188 = PERSON_AND_ORGANIZATION_ROLE ( 'creator' ) ;
#189 = ORIENTED_EDGE ( 'NONE', *, *, #75, .F. ) ;
#190 = ORIENTED_EDGE ( 'NONE', *, *, #295, .F. ) ;
#191 = ADVANCED_FACE ( 'NONE', ( #130, #201 ), #229, .F. ) ;
#192 = AXIS2_PLACEMENT_3D ( 'NONE', #245, #120, #219 ) ;
#193 = CARTESIAN_POINT ( 'NONE',  ( 0.5000000000000004441, 3.673940397442059868E-16, -3.000000000000000000 ) ) ;
#194 = EDGE_LOOP ( 'NONE', ( #150, #277 ) ) ;
#195 = CYLINDRICAL_SURFACE ( 'NONE', #309, 3.000000000000000000 ) ;
#196 = EDGE_CURVE ( 'NONE', #154, #129, #312, .T. ) ;
#197 = DIRECTION ( 'NONE',  ( 0.000000000000000000, 0.000000000000000000, -1.000000000000000000 ) ) ;
#198 = ORIENTED_EDGE ( 'NONE', *, *, #32, .F. ) ;
#199 = CYLINDRICAL_SURFACE ( 'NONE', #257, 3.000000000000000000 ) ;
#200 = ORIENTED_EDGE ( 'NONE', *, *, #67, .F. ) ;
#201 = FACE_OUTER_BOUND ( 'NONE', #51, .T. ) ;
#202 = ORIENTED_EDGE ( 'NONE', *, *, #295, .T. ) ;
#203 = CIRCLE ( 'NONE', #250, 3.000000000000000000 ) ;
#204 = CIRCLE ( 'NONE', #268, 3.000000000000000000 ) ;
#205 = CIRCLE ( 'NONE', #286, 5.000000000000000000 ) ;
#206 = CARTESIAN_POINT ( 'NONE',  ( -1.614212418857619014, 0.000000000000000000, 0.000000000000000000 ) ) ;
#207 = DIRECTION ( 'NONE',  ( 0.000000000000000000, 0.000000000000000000, 1.000000000000000000 ) ) ;
#208 = CALENDAR_DATE ( 2020, 22, 12 ) ;
#209 = AXIS2_PLACEMENT_3D ( 'NONE', #225, #333, #25 ) ;
#210 = LOCAL_TIME ( 16, 54, 18.00000000000000000, #109 ) ;
#211 = ORIENTED_EDGE ( 'NONE', *, *, #47, .F. ) ;
#212 = DATE_AND_TIME ( #266, #44 ) ;
#213 = FACE_OUTER_BOUND ( 'NONE', #94, .T. ) ;
#214 = EDGE_CURVE ( 'NONE', #140, #46, #70, .T. ) ;
#215 =( NAMED_UNIT ( * ) SI_UNIT ( $, .STERADIAN. ) SOLID_ANGLE_UNIT ( ) );
#216 = APPROVAL_STATUS ( 'not_yet_approved' ) ;
#217 = DIRECTION ( 'NONE',  ( -1.000000000000000000, -0.000000000000000000, -0.000000000000000000 ) ) ;
#218 = VECTOR ( 'NONE', #63, 1000.000000000000000 ) ;
#219 = DIRECTION ( 'NONE',  ( 0.000000000000000000, 0.000000000000000000, 1.000000000000000000 ) ) ;
#220 = VERTEX_POINT ( 'NONE', #138 ) ;
#221 = ORIENTED_EDGE ( 'NONE', *, *, #69, .T. ) ;
#222 = PRODUCT_DEFINITION_FORMATION_WITH_SPECIFIED_SOURCE ( 'ANY', '', #301, .NOT_KNOWN. ) ;
#223 = VERTEX_POINT ( 'NONE', #314 ) ;
#224 = CARTESIAN_POINT ( 'NONE',  ( -1.614212418857619014, 0.000000000000000000, 0.000000000000000000 ) ) ;
#225 = CARTESIAN_POINT ( 'NONE',  ( 0.5000000000000002220, 3.000000000000000000, 0.000000000000000000 ) ) ;
#226 = ORIENTED_EDGE ( 'NONE', *, *, #310, .F. ) ;
#227 = CC_DESIGN_APPROVAL ( #119, ( #52 ) ) ;
#228 = APPROVAL ( #216, 'UNSPECIFIED' ) ;
#229 = PLANE ( 'NONE',  #125 ) ;
#230 = DIRECTION ( 'NONE',  ( 0.000000000000000000, 0.000000000000000000, 1.000000000000000000 ) ) ;
#231 = VECTOR ( 'NONE', #177, 1000.000000000000000 ) ;
#232 = LINE ( 'NONE', #4, #21 ) ;
#233 = SECURITY_CLASSIFICATION ( '', '', #15 ) ;
#234 = PLANE ( 'NONE',  #72 ) ;
#235 = COORDINATED_UNIVERSAL_TIME_OFFSET ( 8, 0, .AHEAD. ) ;
#236 = DIRECTION ( 'NONE',  ( 0.000000000000000000, 0.000000000000000000, 1.000000000000000000 ) ) ;
#237 = APPROVAL_STATUS ( 'not_yet_approved' ) ;
#238 = CARTESIAN_POINT ( 'NONE',  ( -1.500000000000000000, 0.000000000000000000, 5.000000000000000000 ) ) ;
#239 = APPROVAL_PERSON_ORGANIZATION ( #112, #59, #244 ) ;
#240 = PERSON_AND_ORGANIZATION ( #185, #334 ) ;
#241 = PERSON_AND_ORGANIZATION ( #185, #334 ) ;
#242 = CIRCLE ( 'NONE', #192, 5.000000000000000000 ) ;
#243 = CARTESIAN_POINT ( 'NONE',  ( 1.500000000000000444, 0.000000000000000000, 0.000000000000000000 ) ) ;
#244 = APPROVAL_ROLE ( '' ) ;
#245 = CARTESIAN_POINT ( 'NONE',  ( -1.500000000000000000, 0.000000000000000000, 0.000000000000000000 ) ) ;
#246 =( GEOMETRIC_REPRESENTATION_CONTEXT ( 3 ) GLOBAL_UNCERTAINTY_ASSIGNED_CONTEXT ( ( #292 ) ) GLOBAL_UNIT_ASSIGNED_CONTEXT ( ( #315, #297, #215 ) ) REPRESENTATION_CONTEXT ( 'NONE', 'WORKASPACE' ) );
#247 = CARTESIAN_POINT ( 'NONE',  ( -1.614212418857619014, 3.673940397442059868E-16, -3.000000000000000000 ) ) ;
#248 = FACE_OUTER_BOUND ( 'NONE', #296, .T. ) ;
#249 = CARTESIAN_POINT ( 'NONE',  ( -1.500000000000000000, 3.673940397442059868E-16, -3.000000000000000000 ) ) ;
#250 = AXIS2_PLACEMENT_3D ( 'NONE', #311, #278, #197 ) ;
#251 = PRODUCT_RELATED_PRODUCT_CATEGORY ( 'detail', '', ( #301 ) ) ;
#252 = AXIS2_PLACEMENT_3D ( 'NONE', #12, #135, #108 ) ;
#253 = DIRECTION ( 'NONE',  ( 1.000000000000000000, 0.000000000000000000, 0.000000000000000000 ) ) ;
#254 = FACE_OUTER_BOUND ( 'NONE', #136, .T. ) ;
#255 = VERTEX_POINT ( 'NONE', #35 ) ;
#256 = FACE_OUTER_BOUND ( 'NONE', #303, .T. ) ;
#257 = AXIS2_PLACEMENT_3D ( 'NONE', #224, #331, #77 ) ;
#258 = DESIGN_CONTEXT ( 'detailed design', #78, 'design' ) ;
#259 = CARTESIAN_POINT ( 'NONE',  ( -1.614212418857619014, 6.123233995736766282E-16, -5.000000000000000000 ) ) ;
#260 = DIRECTION ( 'NONE',  ( 0.000000000000000000, 0.000000000000000000, -1.000000000000000000 ) ) ;
#261 = EDGE_CURVE ( 'NONE', #140, #132, #163, .T. ) ;
#262 = AXIS2_PLACEMENT_3D ( 'NONE', #175, #49, #152 ) ;
#263 = CARTESIAN_POINT ( 'NONE',  ( -1.500000000000000000, 0.000000000000000000, 0.000000000000000000 ) ) ;
#264 = PERSON_AND_ORGANIZATION ( #185, #334 ) ;
#265 = FACE_OUTER_BOUND ( 'NONE', #126, .T. ) ;
#266 = CALENDAR_DATE ( 2020, 22, 12 ) ;
#267 = DIRECTION ( 'NONE',  ( 0.000000000000000000, 0.000000000000000000, 1.000000000000000000 ) ) ;
#268 = AXIS2_PLACEMENT_3D ( 'NONE', #275, #273, #305 ) ;
#269 = PLANE ( 'NONE',  #37 ) ;
#270 = CC_DESIGN_PERSON_AND_ORGANIZATION_ASSIGNMENT ( #241, #141, ( #222 ) ) ;
#271 = PRODUCT_DEFINITION_SHAPE ( 'NONE', 'NONE',  #52 ) ;
#272 = LINE ( 'NONE', #247, #20 ) ;
#273 = DIRECTION ( 'NONE',  ( -1.000000000000000000, -0.000000000000000000, -0.000000000000000000 ) ) ;
#274 = AXIS2_PLACEMENT_3D ( 'NONE', #307, #253, #155 ) ;
#275 = CARTESIAN_POINT ( 'NONE',  ( 0.5000000000000004441, 0.000000000000000000, 0.000000000000000000 ) ) ;
#276 = EDGE_CURVE ( 'NONE', #306, #220, #205, .T. ) ;
#277 = ORIENTED_EDGE ( 'NONE', *, *, #128, .F. ) ;
#278 = DIRECTION ( 'NONE',  ( 1.000000000000000000, 0.000000000000000000, 0.000000000000000000 ) ) ;
#279 = ORIENTED_EDGE ( 'NONE', *, *, #151, .F. ) ;
#280 = CLOSED_SHELL ( 'NONE', ( #92, #173, #28, #180, #302, #323, #191, #107, #6, #329 ) ) ;
#281 = ORIENTED_EDGE ( 'NONE', *, *, #261, .T. ) ;
#282 = LOCAL_TIME ( 16, 54, 18.00000000000000000, #93 ) ;
#283 = DIRECTION ( 'NONE',  ( 0.000000000000000000, 0.000000000000000000, 1.000000000000000000 ) ) ;
#284 = DIRECTION ( 'NONE',  ( -1.000000000000000000, -0.000000000000000000, -0.000000000000000000 ) ) ;
#285 = PERSON_AND_ORGANIZATION ( #185, #334 ) ;
#286 = AXIS2_PLACEMENT_3D ( 'NONE', #263, #90, #7 ) ;
#287 = DIRECTION ( 'NONE',  ( 0.000000000000000000, 0.000000000000000000, -1.000000000000000000 ) ) ;
#288 = APPROVAL_ROLE ( '' ) ;
#289 = DIRECTION ( 'NONE',  ( -1.000000000000000000, -0.000000000000000000, -0.000000000000000000 ) ) ;
#290 = LOCAL_TIME ( 16, 54, 18.00000000000000000, #235 ) ;
#291 = PERSON_AND_ORGANIZATION_ROLE ( 'design_owner' ) ;
#292 = UNCERTAINTY_MEASURE_WITH_UNIT (LENGTH_MEASURE( 1.000000000000000082E-05 ), #315, 'distance_accuracy_value', 'NONE');
#293 = CC_DESIGN_PERSON_AND_ORGANIZATION_ASSIGNMENT ( #13, #291, ( #301 ) ) ;
#294 = DIRECTION ( 'NONE',  ( 0.000000000000000000, 0.000000000000000000, 1.000000000000000000 ) ) ;
#295 = EDGE_CURVE ( 'NONE', #255, #45, #272, .T. ) ;
#296 = EDGE_LOOP ( 'NONE', ( #211, #326, #171, #178 ) ) ;
#297 =( NAMED_UNIT ( * ) PLANE_ANGLE_UNIT ( ) SI_UNIT ( $, .RADIAN. ) );
#298 = FACE_OUTER_BOUND ( 'NONE', #117, .T. ) ;
#299 = CIRCLE ( 'NONE', #26, 3.000000000000000000 ) ;
#300 = ORIENTED_EDGE ( 'NONE', *, *, #128, .T. ) ;
#301 = PRODUCT ( 'Q-DWWP-R41-25.4-1064-SH-M', 'Q-DWWP-R41-25.4-1064-SH-M', '', ( #322 ) ) ;
#302 = ADVANCED_FACE ( 'NONE', ( #265 ), #43, .F. ) ;
#303 = EDGE_LOOP ( 'NONE', ( #40, #202, #300, #226 ) ) ;
#304 = EDGE_LOOP ( 'NONE', ( #14, #308 ) ) ;
#305 = DIRECTION ( 'NONE',  ( 0.000000000000000000, 0.000000000000000000, 1.000000000000000000 ) ) ;
#306 = VERTEX_POINT ( 'NONE', #238 ) ;
#307 = CARTESIAN_POINT ( 'NONE',  ( -0.5000000000000002220, 0.000000000000000000, 0.000000000000000000 ) ) ;
#308 = ORIENTED_EDGE ( 'NONE', *, *, #69, .F. ) ;
#309 = AXIS2_PLACEMENT_3D ( 'NONE', #164, #73, #267 ) ;
#310 = EDGE_CURVE ( 'NONE', #324, #223, #10, .T. ) ;
#311 = CARTESIAN_POINT ( 'NONE',  ( -0.5000000000000002220, 0.000000000000000000, 0.000000000000000000 ) ) ;
#312 = CIRCLE ( 'NONE', #33, 5.000000000000000000 ) ;
#313 = CC_DESIGN_DATE_AND_TIME_ASSIGNMENT ( #137, #318, ( #233 ) ) ;
#314 = CARTESIAN_POINT ( 'NONE',  ( -1.500000000000000000, 0.000000000000000000, 3.000000000000000000 ) ) ;
#315 =( LENGTH_UNIT ( ) NAMED_UNIT ( * ) SI_UNIT ( .MILLI., .METRE. ) );
#316 = CALENDAR_DATE ( 2020, 22, 12 ) ;
#317 = DIRECTION ( 'NONE',  ( -1.000000000000000000, -0.000000000000000000, -0.000000000000000000 ) ) ;
#318 = DATE_TIME_ROLE ( 'classification_date' ) ;
#319 = CC_DESIGN_APPROVAL ( #59, ( #222 ) ) ;
#320 = APPROVAL_DATE_TIME ( #161, #228 ) ;
#321 = CYLINDRICAL_SURFACE ( 'NONE', #106, 3.000000000000000000 ) ;
#322 = MECHANICAL_CONTEXT ( 'NONE', #58, 'mechanical' ) ;
#323 = ADVANCED_FACE ( 'NONE', ( #213 ), #321, .F. ) ;
#324 = VERTEX_POINT ( 'NONE', #146 ) ;
#325 = ADVANCED_BREP_SHAPE_REPRESENTATION ( 'Q-DWWP-R41-25.4-1064-SH-M', ( #89, #145 ), #246 ) ;
#326 = ORIENTED_EDGE ( 'NONE', *, *, #151, .T. ) ;
#327 = CARTESIAN_POINT ( 'NONE',  ( 1.500000000000000222, 5.000000000000000000, 0.000000000000000000 ) ) ;
#328 = EDGE_CURVE ( 'NONE', #223, #45, #65, .T. ) ;
#329 = ADVANCED_FACE ( 'NONE', ( #56 ), #234, .F. ) ;
#330 = DIRECTION ( 'NONE',  ( -0.000000000000000000, 0.000000000000000000, 1.000000000000000000 ) ) ;
#331 = DIRECTION ( 'NONE',  ( -1.000000000000000000, -0.000000000000000000, -0.000000000000000000 ) ) ;
#332 = CC_DESIGN_PERSON_AND_ORGANIZATION_ASSIGNMENT ( #264, #39, ( #222 ) ) ;
#333 = DIRECTION ( 'NONE',  ( -1.000000000000000000, 0.000000000000000000, -0.000000000000000000 ) ) ;
#334 = ORGANIZATION ( 'UNSPECIFIED', 'UNSPECIFIED', '' ) ;
#335 = LINE ( 'NONE', #259, #3 ) ;
ENDSEC;
END-ISO-10303-21;
